Artiste   #   A  B  C  D  E  F  G  H  I  J  K  L  M  N  O  P  Q  R  S  T  U  V  W  X  Y  Z  
 
 
 
 
 
> Blur > Beetlebum > Basse
Beetlebum

 

		


Song:Beetlebum
Band:Blur
Album:Blur

1st verse
G-------------|----------9---------------9---------|
D--/8---------|--7-7---7---7\----7-7---7---7---4---|
A------8h10---|-----7h9-------------7h9------------|
E-------------|------------------------------------|

G------------------------------|---------------------------------------|
D--------------------------0---|--3-3---3--3-3---3--3-3---3--3-3---3---|
A--3-3---------3-3-------3-----|-----3h5---------------3h5------3h5----|
E--------3-3---------3-3-------|---------------------------------------|

G------------------------------|-------------|
D--5-5---5--5-5---5--5-5---5---|--/8---------|
A-----5h7------5h7------5h7----|------10\----|
E------------------------------|-------------|

G-----------9------------|
D--7-7----7---7----7-7---|
A------7h9------7h9------|
E------------------------|  "and when she lets me slip away..."

Chorus
G-----------------------------------------------------------------|
D--10--12-10------9--9-10-9------/7--/7--/7----5---3--------------|
A------------10-------------9---------------7----------5-5-3-3----|
E-----------------------------------------------------------------|
                                                 at the end of 1st chorus
G---------------------------------------------------|-------|
D----------------3--3-5-5-3-3-5-5-6-6---------------|-------|
A--0---3-5---0------------------------6-6-3-3-5-5---|--3----|
E---------------------------------------------------|-------|

2nd verse
G-------------|----------9---------------9---------|
D--/8---------|--7-7---7---7-7\--7-7---7---7---4---|
A------8h10---|-----7h9-------------7h9------------|
E-------------|------------------------------------|

G------------------------------|---------------------------------------|
D--------------------------0---|--3-3---3--3-3-3\---3-3---3--3-3---3---|
A--3-3---------3-3--3----3-----|-----3h5---------------3h5------3h5----|
E--------3-3---------3-3-------|---------------------------------------|

G------------------------------|-------------|
D--5-5---5--5-5---5--5-5---5---|--/8---------|
A-----5h7------5h7------5h7----|------10\----|
E------------------------------|-------------|

G-----------9------------|
D--7-7----7---7----7-7---|
A------7h9------7h9------|
E------------------------|  "and when she lets me slip away..."

Outro("He's on..." part)
G------------------------------9---------|
D---------------------7-7----7---7\------|
A--7-0-----7-0------------7h9------------|
E----------------------------------------|

G------------------------------|------------------------------5----------|
D--------------------------0---|--3h5-3---3--5-3----3-3----3----3----3---|
A--3-3---------3-3--3----3-----|-------3h5--------------3h5-------3h5----|
E--------3-3---------3-3-------|-----------------------------------------|

G------------------------------|-------------|
D--5-5---5--5-5---5--5-5---5---|--/8---------|
A-----5h7------5h7------5h7----|------10\----|
E------------------------------|-------------|

G--------------------------9---------|
D------------------7-7---7---7\------|
A--7-0-----7-0--------7h9------------|
E------------------------------------|

G------------------------------|-----------------------------5---------|
D--------------------------0---|--3-3---3--3-3-5-3--3-3---3----3---3---|
A--3-3---------3-3-------3-----|-----3h5---------------3h5------3h5----|
E--------3-3---------3-3-------|---------------------------------------|

G------------------------------|-------------|
D--5-5---5--5-5---5--5-5---5---|--/8---------|
A-----5h7------5h7------5h7----|------10\----|
E------------------------------|-------------|

Outro(no vocal part)
G----------9---------------9---------|
D--7-7---7---7---7-7-7---7---7-------|
A-----7h9-----7h9-----7h9------7\----|
E------------------------------------|

G------------------------------|------------------------------------------|
D--------------------------0---|--3h5-3---3--3-3-3\--3-3----3--3-3----3---|
A--3-3---------3-3-------3-----|-------3h5---------------3h5-------3h5----|
E--------3-3---------3-3-------|------------------------------------------|

G---------------------7-------|-------------|
D--5-5---5--5-7-5---5---5-----|--/8---------|
A-----5h7---------7-------7---|------10\----|
E-----------------------------|-------------|

G----------9---------------9---------|
D--7-7---7---7---7-7-7---7---7-------|
A-----7h9-----7h9-----7h9------7\----|
E------------------------------------|

G------------------------------|---------------------------------------|
D--------------------------0---|--3-3---3--3-3---3--3-5-3-0--3-0-3-0---|
A--3-3---------3-3-------3-----|-----3h5------3h5----------------------|
E--------3-3---------3-3-------|---------------------------------------|

G------------------------------|-------------|
D--5-5---5--5-5---5--5-5---5---|--/8---------|
A-----5h7------5h7------5h7----|------10\----|
E------------------------------|-------------|

G----------9---------------9---------|
D--7-7---7---7---7-7-7---7---7-------|
A-----7h9-----7h9-----7h9------7\----|
E------------------------------------|

G------------------------------|---------------------------------------|
D--------------------------0---|--3-3---3--3-3---3--3-5-3-0--3-0-3-0---|
A--3-3---------3-3-------3-----|-----3h5------3h5----------------------|
E--------3-3---------3-3-------|---------------------------------------|

G----------------------------------|-------------|
D--5h7-5---5--5-5---5--5h7-5---5---|--/8---------|
A-------5h7------5h7--------5h7----|------10\----|
E----------------------------------|-------------|


 

Cette tablature a été vue 130 fois