Artiste   #   A  B  C  D  E  F  G  H  I  J  K  L  M  N  O  P  Q  R  S  T  U  V  W  X  Y  Z  
 
 
 
 
 
> Blur > Beetlebum > Guitare
Beetlebum

 

		
Delay 320ms, never feedback (only one replay)

riff 1 4x
E--------/
B--------/
G--------/
D--------/
A-x-x-x-x/
E-x-x-x-x/

riff 2 4x (A5)

E---------------------/
B---------------------/
G---------------------/
D---------------------/
A-----7-7-7-----7-7-7-/
E-12/-5-5-5-12/-5-5-5-/
riff 3 4x (A5 C5 F5 G5 Bb5)

E---------------------|----------------------|----------------------------|
B---------------------|----------------------|----------------------------|
G---------------------|----------------------|----------------------------|
D---------------------|----------------------|----------------------------|
A-----7-7-7-----7-7-7-|------7-7-7-----7-7-7-|-----10-10-10-----10-10-10--|
E-12/-5-5-5-12/-5-5-5-|--12/-5-5-5-12/-5-5-5-|-12/--8--8--8-12/--8--8--8--|


----------------------------|-------------------|-------------------|
----------------------------|-------------------|-------------------|
----------------------------|-------------------|-------------------|
----------------------------|-------------------|-------------------|
-----10-10-10-----10-10-10--|----3-3-3----3-3-3-|----3-3-3----3-3-3-|
-12/--8--8--8-12/--8--8--8--|-7/-1-1-1-7/-1-1-1-|-7/-1-1-1-7/-1-1-1-|

-------------------|-------------/
-------------------|-------------/
-------------------|-------------/
-------------------|-------------/
----5-5-3----5-5-5-|----5-5-3-8-8/
-7/-3-5-3-7/-3-3-3-|-7/-3-5-3-6-6/

riff 4 (A)
                            Delay off   
E-------17-17-17-17-17-17-|-17-/
B-14-14-17-17-17-17-17-17-|-17-/
G-14-14-14-14-14-14-14-14-|-14-/
D-14-14-14-14-14-14-14-14-|-14-/
A-0--0--0--0--0--0--0--0--|-0--/
E-------------------------|----/

/:gliss or full

Questions or Corrections.
dedofono@hotmail.com


 

Cette tablature a été vue 144 fois